Wikia

Phineas and Ferb Wiki

Egyptian Guitar Solo

2,784pages on
this wiki
Talk0
Phineas and Ferb - Egyptian Guitar Solo01:05

Phineas and Ferb - Egyptian Guitar Solo

"Egyptian Guitar Solo" is the name of a music played in "The Lizard Whisperer". After visiting Egypt, Doofenshmirtz discovers a cryptic guitar solo used by the ancient Egyptians used to summon aliens to perform incredible feats, such as building the pyramids. He wanted to learn the solo, so he quickly outbid Major Monogram on a new guitar and soon booked guitar lessons with Jeremy. After learning the solo he uses his Omni-Directional-Amplifinator to project the solo out into space to summon the Aliens to rule the Tri-state Area. Phineas and Ferb's new pet Steve mistakes his Every-Directional-Amplifinator for a mushroom and promptly eats it. Agent P plays it reverse version of the solo that send the Aliens away. "(The Lizard Whisperer)"

Tab

e|-------------------------------------------------|
B|-------------------------12-13-16-13-12----------|
G|-------------13----13-14-------------------13----|
D|-14----14-15-------------------------------------|
A|-------------------------------------------------|
E|-------------------------------------------------|

e|-------------------------------------------------|
B|----12-13-12-13----------------------------------|
G|-14----------------14----13-14-13----13----------|
D|----------------------------------15-------15-14-|
A|-------------------------------------------------|
E|-------------------------------------------------|

Background Information

  • The melody may be based upon a popular Greek song known as "Misirlou".
  • Agent P plays the solo in reverse to send the aliens away. However in the episode, it shows him turning the music upside down, which would result in a completely different melody.

Songwriter

BMI Work # 12821037

See Also

Previous:
"Bust Your Brothers"
Songs Next:
"Robot Rodeo"

Around Wikia's network

Random Wiki